ISO-10303-21;
HEADER;
FILE_DESCRIPTION (( 'STEP AP214' ),
    '1' );
FILE_NAME ('2049074.STEP',
    '2025-01-27T14:23:50',
    ( '' ),
    ( '' ),
    'SwSTEP 2.0',
    'SolidWorks 2024',
    '' );
FILE_SCHEMA (( 'AUTOMOTIVE_DESIGN' ));
ENDSEC;

DATA;
#1 = VECTOR ( 'NONE', #150, 1000.000000000000000 ) ;
#2 = EDGE_CURVE ( 'NONE', #22, #215, #272, .T. ) ;
#3 = DIRECTION ( 'NONE',  ( -0.000000000000000000, -1.000000000000000000, -0.000000000000000000 ) ) ;
#4 = CIRCLE ( 'NONE', #173, 7.249999999999999112 ) ;
#5 = CARTESIAN_POINT ( 'NONE',  ( -6.307551690896659125, 2.575000000000000178, 10.92499999999999716 ) ) ;
#6 = CARTESIAN_POINT ( 'NONE',  ( -6.307551690896662677, 2.575000000000000178, -10.92500000000000249 ) ) ;
#7 = FACE_OUTER_BOUND ( 'NONE', #245, .T. ) ;
#8 = EDGE_CURVE ( 'NONE', #324, #52, #60, .T. ) ;
#9 = CARTESIAN_POINT ( 'NONE',  ( 0.000000000000000000, -2.574999999999999289, 7.249999999999999112 ) ) ;
#10 = CARTESIAN_POINT ( 'NONE',  ( 6.307551690896668894, 2.575000000000000178, 10.92499999999999716 ) ) ;
#11 = EDGE_LOOP ( 'NONE', ( #78, #316, #44, #39 ) ) ;
#12 = VECTOR ( 'NONE', #315, 1000.000000000000114 ) ;
#13 = LINE ( 'NONE', #258, #90 ) ;
#14 = DIRECTION ( 'NONE',  ( 0.000000000000000000, -0.000000000000000000, 1.000000000000000000 ) ) ;
#15 = ORIENTED_EDGE ( 'NONE', *, *, #86, .T. ) ;
#16 = CARTESIAN_POINT ( 'NONE',  ( 12.61510338179332713, -2.575000000000000178, 3.467732972093874195E-15 ) ) ;
#17 = ORIENTED_EDGE ( 'NONE', *, *, #129, .T. ) ;
#18 = DIRECTION ( 'NONE',  ( 0.4999999999999999445, 0.000000000000000000, -0.8660254037844385966 ) ) ;
#19 = CARTESIAN_POINT ( 'NONE',  ( -6.307551690896659125, -2.575000000000000178, 10.92499999999999716 ) ) ;
#20 = VERTEX_POINT ( 'NONE', #165 ) ;
#21 = EDGE_CURVE ( 'NONE', #200, #326, #232, .T. ) ;
#22 = VERTEX_POINT ( 'NONE', #9 ) ;
#23 = EDGE_CURVE ( 'NONE', #324, #200, #295, .T. ) ;
#24 = DIRECTION ( 'NONE',  ( -1.000000000000000000, 0.000000000000000000, 0.000000000000000000 ) ) ;
#25 = ORIENTED_EDGE ( 'NONE', *, *, #8, .F. ) ;
#26 = AXIS2_PLACEMENT_3D ( 'NONE', #108, #151, #136 ) ;
#27 = DIRECTION ( 'NONE',  ( -0.8660254037844385966, 0.000000000000000000, 0.5000000000000003331 ) ) ;
#28 = CIRCLE ( 'NONE', #26, 7.249999999999988454 ) ;
#29 = CARTESIAN_POINT ( 'NONE',  ( 12.61510338179332713, 2.575000000000000178, 3.467732972093874195E-15 ) ) ;
#30 = CARTESIAN_POINT ( 'NONE',  ( 6.307551690896668894, -2.575000000000000178, 10.92499999999999716 ) ) ;
#31 = DIRECTION ( 'NONE',  ( -0.5000000000000003331, 0.000000000000000000, -0.8660254037844384856 ) ) ;
#32 = DIRECTION ( 'NONE',  ( -0.000000000000000000, 1.000000000000000000, -0.000000000000000000 ) ) ;
#33 = FACE_OUTER_BOUND ( 'NONE', #83, .T. ) ;
#34 = EDGE_CURVE ( 'NONE', #20, #215, #251, .T. ) ;
#35 = VERTEX_POINT ( 'NONE', #6 ) ;
#36 = AXIS2_PLACEMENT_3D ( 'NONE', #156, #154, #51 ) ;
#37 = DIRECTION ( 'NONE',  ( 0.000000000000000000, 0.000000000000000000, 1.000000000000000000 ) ) ;
#38 = DIRECTION ( 'NONE',  ( -0.8660254037844387076, 0.000000000000000000, -0.5000000000000000000 ) ) ;
#39 = ORIENTED_EDGE ( 'NONE', *, *, #21, .T. ) ;
#40 = CARTESIAN_POINT ( 'NONE',  ( 12.61510338179332713, -2.575000000000000178, 3.467732972093874195E-15 ) ) ;
#41 = VERTEX_POINT ( 'NONE', #107 ) ;
#42 =( NAMED_UNIT ( * ) SI_UNIT ( $, .STERADIAN. ) SOLID_ANGLE_UNIT ( ) );
#43 = VECTOR ( 'NONE', #166, 1000.000000000000114 ) ;
#44 = ORIENTED_EDGE ( 'NONE', *, *, #206, .F. ) ;
#45 = VECTOR ( 'NONE', #193, 1000.000000000000000 ) ;
#46 = DIRECTION ( 'NONE',  ( 0.000000000000000000, 0.000000000000000000, 1.000000000000000000 ) ) ;
#47 = ORIENTED_EDGE ( 'NONE', *, *, #56, .F. ) ;
#48 = AXIS2_PLACEMENT_3D ( 'NONE', #263, #92, #14 ) ;
#49 = PRESENTATION_LAYER_ASSIGNMENT (  '', '', ( #304 ) ) ;
#50 = CARTESIAN_POINT ( 'NONE',  ( 0.000000000000000000, 2.575000000000000178, 7.249999999999994671 ) ) ;
#51 = DIRECTION ( 'NONE',  ( -0.5000000000000003331, 0.000000000000000000, -0.8660254037844383745 ) ) ;
#52 = VERTEX_POINT ( 'NONE', #289 ) ;
#53 = CLOSED_SHELL ( 'NONE', ( #222, #325, #250, #219, #75, #243, #180, #227, #322, #276 ) ) ;
#54 = CARTESIAN_POINT ( 'NONE',  ( 6.307551690896668894, 2.575000000000000178, 10.92499999999999716 ) ) ;
#55 = DIRECTION ( 'NONE',  ( -0.000000000000000000, -1.000000000000000000, -0.000000000000000000 ) ) ;
#56 = EDGE_CURVE ( 'NONE', #299, #62, #241, .T. ) ;
#57 = CARTESIAN_POINT ( 'NONE',  ( -6.307551690896659125, 2.575000000000000178, 10.92499999999999716 ) ) ;
#58 = DIRECTION ( 'NONE',  ( -0.000000000000000000, -1.000000000000000000, -0.000000000000000000 ) ) ;
#59 = SURFACE_STYLE_USAGE ( .BOTH. , #283 ) ;
#60 = LINE ( 'NONE', #282, #126 ) ;
#61 = EDGE_CURVE ( 'NONE', #41, #62, #214, .T. ) ;
#62 = VERTEX_POINT ( 'NONE', #40 ) ;
#63 = PRODUCT_DEFINITION_SHAPE ( 'NONE', 'NONE',  #271 ) ;
#64 = VECTOR ( 'NONE', #119, 1000.000000000000000 ) ;
#65 = CARTESIAN_POINT ( 'NONE',  ( 6.307551690896668894, 2.575000000000000178, 10.92499999999999716 ) ) ;
#66 = AXIS2_PLACEMENT_3D ( 'NONE', #116, #46, #147 ) ;
#67 = ORIENTED_EDGE ( 'NONE', *, *, #284, .T. ) ;
#68 = AXIS2_PLACEMENT_3D ( 'NONE', #160, #109, #310 ) ;
#69 = CARTESIAN_POINT ( 'NONE',  ( -6.307551690896659125, 2.575000000000000178, 10.92499999999999716 ) ) ;
#70 = FACE_OUTER_BOUND ( 'NONE', #237, .T. ) ;
#71 = ORIENTED_EDGE ( 'NONE', *, *, #195, .F. ) ;
#72 = PRODUCT_DEFINITION_CONTEXT ( 'detailed design', #168, 'design' ) ;
#73 = LINE ( 'NONE', #190, #12 ) ;
#74 = ORIENTED_EDGE ( 'NONE', *, *, #21, .F. ) ;
#75 = ADVANCED_FACE ( 'NONE', ( #207 ), #118, .F. ) ;
#76 = LINE ( 'NONE', #161, #64 ) ;
#77 = EDGE_CURVE ( 'NONE', #93, #52, #209, .T. ) ;
#78 = ORIENTED_EDGE ( 'NONE', *, *, #293, .T. ) ;
#79 = CYLINDRICAL_SURFACE ( 'NONE', #97, 7.249999999999994671 ) ;
#80 = VECTOR ( 'NONE', #98, 1000.000000000000000 ) ;
#81 = VERTEX_POINT ( 'NONE', #307 ) ;
#82 = PLANE ( 'NONE',  #36 ) ;
#83 = EDGE_LOOP ( 'NONE', ( #47, #225, #117, #145, #100, #319 ) ) ;
#84 = EDGE_CURVE ( 'NONE', #81, #35, #285, .T. ) ;
#85 = CARTESIAN_POINT ( 'NONE',  ( 12.61510338179332713, 2.575000000000000178, 3.467732972093874195E-15 ) ) ;
#86 = EDGE_CURVE ( 'NONE', #52, #326, #73, .T. ) ;
#87 = LINE ( 'NONE', #54, #181 ) ;
#88 = DIRECTION ( 'NONE',  ( -0.000000000000000000, -1.000000000000000000, -0.000000000000000000 ) ) ;
#89 = FILL_AREA_STYLE ('',( #253 ) ) ;
#90 = VECTOR ( 'NONE', #88, 1000.000000000000000 ) ;
#91 = CARTESIAN_POINT ( 'NONE',  ( -6.307551690896662677, 2.575000000000000178, -10.92500000000000249 ) ) ;
#92 = DIRECTION ( 'NONE',  ( 0.000000000000000000, 1.000000000000000000, 0.000000000000000000 ) ) ;
#93 = VERTEX_POINT ( 'NONE', #267 ) ;
#94 = DIRECTION ( 'NONE',  ( -0.000000000000000000, 1.000000000000000000, -0.000000000000000000 ) ) ;
#95 = ORIENTED_EDGE ( 'NONE', *, *, #278, .F. ) ;
#96 = ORIENTED_EDGE ( 'NONE', *, *, #111, .F. ) ;
#97 = AXIS2_PLACEMENT_3D ( 'NONE', #247, #204, #306 ) ;
#98 = DIRECTION ( 'NONE',  ( -1.000000000000000000, 0.000000000000000000, 0.000000000000000000 ) ) ;
#99 = EDGE_LOOP ( 'NONE', ( #261, #211, #300, #120 ) ) ;
#100 = ORIENTED_EDGE ( 'NONE', *, *, #266, .F. ) ;
#101 = VECTOR ( 'NONE', #31, 1000.000000000000114 ) ;
#102 = CYLINDRICAL_SURFACE ( 'NONE', #274, 7.249999999999994671 ) ;
#103 = APPLICATION_CONTEXT ( 'automotive_design' ) ;
#104 = EDGE_LOOP ( 'NONE', ( #178, #95, #71, #196 ) ) ;
#105 = DIRECTION ( 'NONE',  ( 1.000000000000000000, 0.000000000000000000, 0.000000000000000000 ) ) ;
#106 = PLANE ( 'NONE',  #323 ) ;
#107 = CARTESIAN_POINT ( 'NONE',  ( 12.61510338179332713, 2.575000000000000178, 3.467732972093874195E-15 ) ) ;
#108 = CARTESIAN_POINT ( 'NONE',  ( 0.000000000000000000, 2.575000000000001066, 0.000000000000000000 ) ) ;
#109 = DIRECTION ( 'NONE',  ( 0.8660254037844387076, -0.000000000000000000, 0.4999999999999999445 ) ) ;
#110 = ORIENTED_EDGE ( 'NONE', *, *, #84, .T. ) ;
#111 = EDGE_CURVE ( 'NONE', #35, #93, #13, .T. ) ;
#112 = PRODUCT ( '2049074', '2049074', '', ( #143 ) ) ;
#113 = CARTESIAN_POINT ( 'NONE',  ( -6.307551690896659125, -2.575000000000000178, 10.92499999999999716 ) ) ;
#114 = VERTEX_POINT ( 'NONE', #133 ) ;
#115 = DIRECTION ( 'NONE',  ( -0.5000000000000003331, 0.000000000000000000, -0.8660254037844384856 ) ) ;
#116 = CARTESIAN_POINT ( 'NONE',  ( 0.000000000000000000, 0.000000000000000000, 0.000000000000000000 ) ) ;
#117 = ORIENTED_EDGE ( 'NONE', *, *, #86, .F. ) ;
#118 = PLANE ( 'NONE',  #68 ) ;
#119 = DIRECTION ( 'NONE',  ( -0.000000000000000000, 1.000000000000000000, -0.000000000000000000 ) ) ;
#120 = ORIENTED_EDGE ( 'NONE', *, *, #260, .T. ) ;
#121 = CARTESIAN_POINT ( 'NONE',  ( 6.307551690896668894, -2.575000000000000178, 10.92499999999999716 ) ) ;
#122 = ORIENTED_EDGE ( 'NONE', *, *, #303, .T. ) ;
#123 = UNCERTAINTY_MEASURE_WITH_UNIT (LENGTH_MEASURE( 1.000000000000000082E-05 ), #298, 'distance_accuracy_value', 'NONE');
#124 = EDGE_LOOP ( 'NONE', ( #198, #159 ) ) ;
#125 = EDGE_CURVE ( 'NONE', #35, #324, #262, .T. ) ;
#126 = VECTOR ( 'NONE', #317, 1000.000000000000000 ) ;
#127 = VECTOR ( 'NONE', #55, 1000.000000000000000 ) ;
#128 = CARTESIAN_POINT ( 'NONE',  ( -6.307551690896659125, 2.575000000000000178, 10.92499999999999716 ) ) ;
#129 = EDGE_CURVE ( 'NONE', #22, #140, #309, .T. ) ;
#130 = DIRECTION ( 'NONE',  ( 1.000000000000000000, 0.000000000000000000, -0.000000000000000000 ) ) ;
#131 = FACE_OUTER_BOUND ( 'NONE', #223, .T. ) ;
#132 = VECTOR ( 'NONE', #135, 1000.000000000000114 ) ;
#133 = CARTESIAN_POINT ( 'NONE',  ( 6.307551690896657348, -2.575000000000000178, -10.92500000000000249 ) ) ;
#134 = FACE_OUTER_BOUND ( 'NONE', #99, .T. ) ;
#135 = DIRECTION ( 'NONE',  ( 0.5000000000000003331, 0.000000000000000000, 0.8660254037844383745 ) ) ;
#136 = DIRECTION ( 'NONE',  ( 0.000000000000000000, 0.000000000000000000, 1.000000000000000000 ) ) ;
#137 = EDGE_CURVE ( 'NONE', #140, #22, #4, .T. ) ;
#138 = DIRECTION ( 'NONE',  ( 0.000000000000000000, 0.000000000000000000, 1.000000000000000000 ) ) ;
#139 = DIRECTION ( 'NONE',  ( -0.4999999999999999445, 0.000000000000000000, 0.8660254037844385966 ) ) ;
#140 = VERTEX_POINT ( 'NONE', #141 ) ;
#141 = CARTESIAN_POINT ( 'NONE',  ( 8.878689293818310074E-16, -2.574999999999999289, -7.249999999999999112 ) ) ;
#142 = CARTESIAN_POINT ( 'NONE',  ( 6.307551690896668894, 2.575000000000000178, 10.92499999999999716 ) ) ;
#143 = PRODUCT_CONTEXT ( 'NONE', #103, 'mechanical' ) ;
#144 = ORIENTED_EDGE ( 'NONE', *, *, #56, .T. ) ;
#145 = ORIENTED_EDGE ( 'NONE', *, *, #77, .F. ) ;
#146 = AXIS2_PLACEMENT_3D ( 'NONE', #292, #157, #155 ) ;
#147 = DIRECTION ( 'NONE',  ( 1.000000000000000000, 0.000000000000000000, 0.000000000000000000 ) ) ;
#148 = ORIENTED_EDGE ( 'NONE', *, *, #278, .T. ) ;
#149 = VECTOR ( 'NONE', #188, 1000.000000000000227 ) ;
#150 = DIRECTION ( 'NONE',  ( -0.000000000000000000, 1.000000000000000000, -0.000000000000000000 ) ) ;
#151 = DIRECTION ( 'NONE',  ( -0.000000000000000000, 1.000000000000000000, -0.000000000000000000 ) ) ;
#152 = FACE_OUTER_BOUND ( 'NONE', #11, .T. ) ;
#153 = LINE ( 'NONE', #19, #169 ) ;
#154 = DIRECTION ( 'NONE',  ( 0.8660254037844384856, 0.000000000000000000, -0.5000000000000004441 ) ) ;
#155 = DIRECTION ( 'NONE',  ( 0.000000000000000000, 0.000000000000000000, 1.000000000000000000 ) ) ;
#156 = CARTESIAN_POINT ( 'NONE',  ( -12.61510338179332535, 2.575000000000000178, -1.736373955725010828E-15 ) ) ;
#157 = DIRECTION ( 'NONE',  ( -0.000000000000000000, 1.000000000000000000, -0.000000000000000000 ) ) ;
#158 = DIRECTION ( 'NONE',  ( 1.000000000000000000, 0.000000000000000000, 0.000000000000000000 ) ) ;
#159 = ORIENTED_EDGE ( 'NONE', *, *, #34, .F. ) ;
#160 = CARTESIAN_POINT ( 'NONE',  ( -6.307551690896662677, 2.575000000000000178, -10.92500000000000249 ) ) ;
#161 = CARTESIAN_POINT ( 'NONE',  ( 8.878689293818304158E-16, 2.575000000000000178, -7.249999999999994671 ) ) ;
#162 = ORIENTED_EDGE ( 'NONE', *, *, #61, .F. ) ;
#163 = CARTESIAN_POINT ( 'NONE',  ( -12.61510338179332535, 2.575000000000000178, -1.736373955725010828E-15 ) ) ;
#164 = ORIENTED_EDGE ( 'NONE', *, *, #234, .T. ) ;
#165 = CARTESIAN_POINT ( 'NONE',  ( 8.878689293818301199E-16, 2.575000000000001066, -7.249999999999988454 ) ) ;
#166 = DIRECTION ( 'NONE',  ( 0.4999999999999999445, 0.000000000000000000, -0.8660254037844385966 ) ) ;
#167 = ORIENTED_EDGE ( 'NONE', *, *, #137, .T. ) ;
#168 = APPLICATION_CONTEXT ( 'automotive_design' ) ;
#169 = VECTOR ( 'NONE', #158, 1000.000000000000000 ) ;
#170 = PRESENTATION_STYLE_ASSIGNMENT (( #59 ) ) ;
#171 = PRODUCT_DEFINITION_FORMATION_WITH_SPECIFIED_SOURCE ( 'ANY', '', #112, .NOT_KNOWN. ) ;
#172 = ORIENTED_EDGE ( 'NONE', *, *, #284, .F. ) ;
#173 = AXIS2_PLACEMENT_3D ( 'NONE', #235, #94, #37 ) ;
#174 = EDGE_CURVE ( 'NONE', #62, #114, #238, .T. ) ;
#175 = CARTESIAN_POINT ( 'NONE',  ( 0.000000000000000000, 2.575000000000000178, 0.000000000000000000 ) ) ;
#176 = AXIS2_PLACEMENT_3D ( 'NONE', #29, #27, #230 ) ;
#177 = MECHANICAL_DESIGN_GEOMETRIC_PRESENTATION_REPRESENTATION (  '', ( #304 ), #249 ) ;
#178 = ORIENTED_EDGE ( 'NONE', *, *, #174, .T. ) ;
#179 = CARTESIAN_POINT ( 'NONE',  ( 6.307551690896657348, -2.575000000000000178, -10.92500000000000249 ) ) ;
#180 = ADVANCED_FACE ( 'NONE', ( #152 ), #224, .F. ) ;
#181 = VECTOR ( 'NONE', #3, 1000.000000000000000 ) ;
#182 = LINE ( 'NONE', #179, #221 ) ;
#183 = DIRECTION ( 'NONE',  ( 0.000000000000000000, -0.000000000000000000, 1.000000000000000000 ) ) ;
#184 =( GEOMETRIC_REPRESENTATION_CONTEXT ( 3 ) GLOBAL_UNCERTAINTY_ASSIGNED_CONTEXT ( ( #123 ) ) GLOBAL_UNIT_ASSIGNED_CONTEXT ( ( #298, #239, #318 ) ) REPRESENTATION_CONTEXT ( 'NONE', 'WORKASPACE' ) );
#185 = CARTESIAN_POINT ( 'NONE',  ( 6.307551690896657348, 2.575000000000000178, -10.92500000000000249 ) ) ;
#186 = SURFACE_STYLE_FILL_AREA ( #89 ) ;
#187 = VECTOR ( 'NONE', #18, 1000.000000000000114 ) ;
#188 = DIRECTION ( 'NONE',  ( -0.5000000000000000000, 0.000000000000000000, 0.8660254037844385966 ) ) ;
#189 = ORIENTED_EDGE ( 'NONE', *, *, #84, .F. ) ;
#190 = CARTESIAN_POINT ( 'NONE',  ( -12.61510338179332535, -2.575000000000000178, -1.736373955725010828E-15 ) ) ;
#191 = EDGE_LOOP ( 'NONE', ( #264, #25, #265, #296 ) ) ;
#192 = ORIENTED_EDGE ( 'NONE', *, *, #137, .F. ) ;
#193 = DIRECTION ( 'NONE',  ( -0.000000000000000000, -1.000000000000000000, -0.000000000000000000 ) ) ;
#194 = VERTEX_POINT ( 'NONE', #10 ) ;
#195 = EDGE_CURVE ( 'NONE', #41, #81, #301, .T. ) ;
#196 = ORIENTED_EDGE ( 'NONE', *, *, #61, .T. ) ;
#197 = AXIS2_PLACEMENT_3D ( 'NONE', #5, #205, #233 ) ;
#198 = ORIENTED_EDGE ( 'NONE', *, *, #260, .F. ) ;
#199 = DIRECTION ( 'NONE',  ( 0.000000000000000000, -0.000000000000000000, 1.000000000000000000 ) ) ;
#200 = VERTEX_POINT ( 'NONE', #128 ) ;
#201 = FACE_OUTER_BOUND ( 'NONE', #104, .T. ) ;
#202 = AXIS2_PLACEMENT_3D ( 'NONE', #142, #38, #139 ) ;
#203 = VECTOR ( 'NONE', #58, 1000.000000000000000 ) ;
#204 = DIRECTION ( 'NONE',  ( -0.000000000000000000, 1.000000000000000000, -0.000000000000000000 ) ) ;
#205 = DIRECTION ( 'NONE',  ( 0.000000000000000000, 0.000000000000000000, -1.000000000000000000 ) ) ;
#206 = EDGE_CURVE ( 'NONE', #200, #194, #308, .T. ) ;
#207 = FACE_OUTER_BOUND ( 'NONE', #191, .T. ) ;
#208 = LINE ( 'NONE', #228, #127 ) ;
#209 = LINE ( 'NONE', #216, #291 ) ;
#210 = APPLICATION_PROTOCOL_DEFINITION ( 'draft international standard', 'automotive_design', 1998, #168 ) ;
#211 = ORIENTED_EDGE ( 'NONE', *, *, #129, .F. ) ;
#212 = PRODUCT_RELATED_PRODUCT_CATEGORY ( 'part', '', ( #112 ) ) ;
#213 = CARTESIAN_POINT ( 'NONE',  ( 0.000000000000000000, -2.574999999999999289, 0.000000000000000000 ) ) ;
#214 = LINE ( 'NONE', #313, #45 ) ;
#215 = VERTEX_POINT ( 'NONE', #255 ) ;
#216 = CARTESIAN_POINT ( 'NONE',  ( -6.307551690896662677, -2.575000000000000178, -10.92500000000000249 ) ) ;
#217 = CARTESIAN_POINT ( 'NONE',  ( -12.61510338179332535, 2.575000000000000178, -1.736373955725010828E-15 ) ) ;
#218 = ORIENTED_EDGE ( 'NONE', *, *, #23, .T. ) ;
#219 = ADVANCED_FACE ( 'NONE', ( #131 ), #106, .F. ) ;
#220 = EDGE_LOOP ( 'NONE', ( #15, #74, #294, #248 ) ) ;
#221 = VECTOR ( 'NONE', #24, 1000.000000000000000 ) ;
#222 = ADVANCED_FACE ( 'NONE', ( #327 ), #79, .F. ) ;
#223 = EDGE_LOOP ( 'NONE', ( #321, #96, #189, #148 ) ) ;
#224 = PLANE ( 'NONE',  #197 ) ;
#225 = ORIENTED_EDGE ( 'NONE', *, *, #293, .F. ) ;
#226 = AXIS2_PLACEMENT_3D ( 'NONE', #213, #32, #138 ) ;
#227 = ADVANCED_FACE ( 'NONE', ( #302, #7 ), #252, .T. ) ;
#228 = CARTESIAN_POINT ( 'NONE',  ( 6.307551690896657348, 2.575000000000000178, -10.92500000000000249 ) ) ;
#229 = VECTOR ( 'NONE', #115, 1000.000000000000114 ) ;
#230 = DIRECTION ( 'NONE',  ( 0.5000000000000002220, 0.000000000000000000, 0.8660254037844384856 ) ) ;
#231 = CARTESIAN_POINT ( 'NONE',  ( 0.000000000000000000, 2.575000000000000178, 0.000000000000000000 ) ) ;
#232 = LINE ( 'NONE', #69, #203 ) ;
#233 = DIRECTION ( 'NONE',  ( -1.000000000000000000, 0.000000000000000000, -0.000000000000000000 ) ) ;
#234 = EDGE_CURVE ( 'NONE', #194, #299, #87, .T. ) ;
#235 = CARTESIAN_POINT ( 'NONE',  ( 0.000000000000000000, -2.574999999999999289, 0.000000000000000000 ) ) ;
#236 = LINE ( 'NONE', #65, #43 ) ;
#237 = EDGE_LOOP ( 'NONE', ( #144, #162, #172, #164 ) ) ;
#238 = LINE ( 'NONE', #16, #229 ) ;
#239 =( NAMED_UNIT ( * ) PLANE_ANGLE_UNIT ( ) SI_UNIT ( $, .RADIAN. ) );
#240 = ORIENTED_EDGE ( 'NONE', *, *, #2, .F. ) ;
#241 = LINE ( 'NONE', #30, #187 ) ;
#242 = PLANE ( 'NONE',  #202 ) ;
#243 = ADVANCED_FACE ( 'NONE', ( #273 ), #82, .F. ) ;
#244 = COLOUR_RGB ( '',0.7921568627450980005, 0.8196078431372548767, 0.9333333333333333481 ) ;
#245 = EDGE_LOOP ( 'NONE', ( #67, #270, #110, #314, #218, #275 ) ) ;
#246 = APPLICATION_PROTOCOL_DEFINITION ( 'draft international standard', 'automotive_design', 1998, #103 ) ;
#247 = CARTESIAN_POINT ( 'NONE',  ( 0.000000000000000000, 2.575000000000000178, 0.000000000000000000 ) ) ;
#248 = ORIENTED_EDGE ( 'NONE', *, *, #8, .T. ) ;
#249 =( GEOMETRIC_REPRESENTATION_CONTEXT ( 3 ) GLOBAL_UNCERTAINTY_ASSIGNED_CONTEXT ( ( #297 ) ) GLOBAL_UNIT_ASSIGNED_CONTEXT ( ( #320, #268, #42 ) ) REPRESENTATION_CONTEXT ( 'NONE', 'WORKASPACE' ) );
#250 = ADVANCED_FACE ( 'NONE', ( #201 ), #305, .F. ) ;
#251 = CIRCLE ( 'NONE', #146, 7.249999999999988454 ) ;
#252 = PLANE ( 'NONE',  #254 ) ;
#253 = FILL_AREA_STYLE_COLOUR ( '', #244 ) ;
#254 = AXIS2_PLACEMENT_3D ( 'NONE', #175, #257, #183 ) ;
#255 = CARTESIAN_POINT ( 'NONE',  ( 0.000000000000000000, 2.575000000000001066, 7.249999999999988454 ) ) ;
#256 = DIRECTION ( 'NONE',  ( -0.5000000000000000000, 0.000000000000000000, 0.8660254037844385966 ) ) ;
#257 = DIRECTION ( 'NONE',  ( 0.000000000000000000, 1.000000000000000000, 0.000000000000000000 ) ) ;
#258 = CARTESIAN_POINT ( 'NONE',  ( -6.307551690896662677, 2.575000000000000178, -10.92500000000000249 ) ) ;
#259 = FACE_BOUND ( 'NONE', #312, .T. ) ;
#260 = EDGE_CURVE ( 'NONE', #215, #20, #28, .T. ) ;
#261 = ORIENTED_EDGE ( 'NONE', *, *, #303, .F. ) ;
#262 = LINE ( 'NONE', #91, #149 ) ;
#263 = CARTESIAN_POINT ( 'NONE',  ( 0.000000000000000000, -2.575000000000000178, 0.000000000000000000 ) ) ;
#264 = ORIENTED_EDGE ( 'NONE', *, *, #77, .T. ) ;
#265 = ORIENTED_EDGE ( 'NONE', *, *, #125, .F. ) ;
#266 = EDGE_CURVE ( 'NONE', #114, #93, #182, .T. ) ;
#267 = CARTESIAN_POINT ( 'NONE',  ( -6.307551690896662677, -2.575000000000000178, -10.92500000000000249 ) ) ;
#268 =( NAMED_UNIT ( * ) PLANE_ANGLE_UNIT ( ) SI_UNIT ( $, .RADIAN. ) );
#269 = VECTOR ( 'NONE', #105, 1000.000000000000000 ) ;
#270 = ORIENTED_EDGE ( 'NONE', *, *, #195, .T. ) ;
#271 = PRODUCT_DEFINITION ( 'UNKNOWN', '', #171, #72 ) ;
#272 = LINE ( 'NONE', #50, #1 ) ;
#273 = FACE_OUTER_BOUND ( 'NONE', #220, .T. ) ;
#274 = AXIS2_PLACEMENT_3D ( 'NONE', #231, #279, #277 ) ;
#275 = ORIENTED_EDGE ( 'NONE', *, *, #206, .T. ) ;
#276 = ADVANCED_FACE ( 'NONE', ( #134 ), #102, .F. ) ;
#277 = DIRECTION ( 'NONE',  ( 0.000000000000000000, 0.000000000000000000, 1.000000000000000000 ) ) ;
#278 = EDGE_CURVE ( 'NONE', #81, #114, #208, .T. ) ;
#279 = DIRECTION ( 'NONE',  ( -0.000000000000000000, 1.000000000000000000, -0.000000000000000000 ) ) ;
#280 = MANIFOLD_SOLID_BREP ( 'M16x1.5 Gewinde', #53 ) ;
#281 = CARTESIAN_POINT ( 'NONE',  ( 6.307551690896657348, 2.575000000000000178, -10.92500000000000249 ) ) ;
#282 = CARTESIAN_POINT ( 'NONE',  ( -12.61510338179332535, 2.575000000000000178, -1.736373955725010828E-15 ) ) ;
#283 = SURFACE_SIDE_STYLE ('',( #186 ) ) ;
#284 = EDGE_CURVE ( 'NONE', #194, #41, #236, .T. ) ;
#285 = LINE ( 'NONE', #185, #80 ) ;
#286 = SHAPE_DEFINITION_REPRESENTATION ( #63, #288 ) ;
#287 = EDGE_LOOP ( 'NONE', ( #192, #122, #290, #240 ) ) ;
#288 = ADVANCED_BREP_SHAPE_REPRESENTATION ( '2049074', ( #280, #66 ), #184 ) ;
#289 = CARTESIAN_POINT ( 'NONE',  ( -12.61510338179332535, -2.575000000000000178, -1.736373955725010828E-15 ) ) ;
#290 = ORIENTED_EDGE ( 'NONE', *, *, #34, .T. ) ;
#291 = VECTOR ( 'NONE', #256, 1000.000000000000227 ) ;
#292 = CARTESIAN_POINT ( 'NONE',  ( 0.000000000000000000, 2.575000000000001066, 0.000000000000000000 ) ) ;
#293 = EDGE_CURVE ( 'NONE', #326, #299, #153, .T. ) ;
#294 = ORIENTED_EDGE ( 'NONE', *, *, #23, .F. ) ;
#295 = LINE ( 'NONE', #163, #132 ) ;
#296 = ORIENTED_EDGE ( 'NONE', *, *, #111, .T. ) ;
#297 = UNCERTAINTY_MEASURE_WITH_UNIT (LENGTH_MEASURE( 1.000000000000000082E-05 ), #320, 'distance_accuracy_value', 'NONE');
#298 =( LENGTH_UNIT ( ) NAMED_UNIT ( * ) SI_UNIT ( .MILLI., .METRE. ) );
#299 = VERTEX_POINT ( 'NONE', #121 ) ;
#300 = ORIENTED_EDGE ( 'NONE', *, *, #2, .T. ) ;
#301 = LINE ( 'NONE', #85, #101 ) ;
#302 = FACE_BOUND ( 'NONE', #124, .T. ) ;
#303 = EDGE_CURVE ( 'NONE', #140, #20, #76, .T. ) ;
#304 = STYLED_ITEM ( 'NONE', ( #170 ), #280 ) ;
#305 = PLANE ( 'NONE',  #176 ) ;
#306 = DIRECTION ( 'NONE',  ( 0.000000000000000000, 0.000000000000000000, 1.000000000000000000 ) ) ;
#307 = CARTESIAN_POINT ( 'NONE',  ( 6.307551690896657348, 2.575000000000000178, -10.92500000000000249 ) ) ;
#308 = LINE ( 'NONE', #57, #269 ) ;
#309 = CIRCLE ( 'NONE', #226, 7.249999999999999112 ) ;
#310 = DIRECTION ( 'NONE',  ( 0.4999999999999998890, 0.000000000000000000, -0.8660254037844385966 ) ) ;
#311 = PLANE ( 'NONE',  #48 ) ;
#312 = EDGE_LOOP ( 'NONE', ( #17, #167 ) ) ;
#313 = CARTESIAN_POINT ( 'NONE',  ( 12.61510338179332713, 2.575000000000000178, 3.467732972093874195E-15 ) ) ;
#314 = ORIENTED_EDGE ( 'NONE', *, *, #125, .T. ) ;
#315 = DIRECTION ( 'NONE',  ( 0.5000000000000003331, 0.000000000000000000, 0.8660254037844383745 ) ) ;
#316 = ORIENTED_EDGE ( 'NONE', *, *, #234, .F. ) ;
#317 = DIRECTION ( 'NONE',  ( -0.000000000000000000, -1.000000000000000000, -0.000000000000000000 ) ) ;
#318 =( NAMED_UNIT ( * ) SI_UNIT ( $, .STERADIAN. ) SOLID_ANGLE_UNIT ( ) );
#319 = ORIENTED_EDGE ( 'NONE', *, *, #174, .F. ) ;
#320 =( LENGTH_UNIT ( ) NAMED_UNIT ( * ) SI_UNIT ( .MILLI., .METRE. ) );
#321 = ORIENTED_EDGE ( 'NONE', *, *, #266, .T. ) ;
#322 = ADVANCED_FACE ( 'NONE', ( #259, #33 ), #311, .F. ) ;
#323 = AXIS2_PLACEMENT_3D ( 'NONE', #281, #199, #130 ) ;
#324 = VERTEX_POINT ( 'NONE', #217 ) ;
#325 = ADVANCED_FACE ( 'NONE', ( #70 ), #242, .F. ) ;
#326 = VERTEX_POINT ( 'NONE', #113 ) ;
#327 = FACE_OUTER_BOUND ( 'NONE', #287, .T. ) ;
ENDSEC;
END-ISO-10303-21;
