ISO-10303-21;
HEADER;
/* Generated by software containing ST-Developer
 * from STEP Tools, Inc. (www.steptools.com) 
 */
/* OPTION: using custom schema-name function */

FILE_DESCRIPTION(
/* description */ (''),
/* implementation_level */ '2;1');

FILE_NAME(
/* name */ '6049174',
/* time_stamp */ '2014-01-15T11:13:41+01:00',
/* author */ (''),
/* organization */ (''),
/* preprocessor_version */ 'ST-DEVELOPER v15',
/* originating_system */ '',
/* authorisation */ '');

FILE_SCHEMA (('CONFIG_CONTROL_DESIGN'));
ENDSEC;

DATA;
#10=SHAPE_REPRESENTATION_RELATIONSHIP('','',#252,#12);
#11=MANIFOLD_SOLID_BREP('Drehriegellochung',#13);
#12=ADVANCED_BREP_SHAPE_REPRESENTATION('brep_rep_0',(#11,#264),#251);
#13=CLOSED_SHELL('',(#14,#15,#16,#17,#18,#19,#20,#21,#22,#23));
#14=ADVANCED_FACE('',(#24),#156,.T.);
#15=ADVANCED_FACE('',(#25),#157,.T.);
#16=ADVANCED_FACE('',(#26),#158,.T.);
#17=ADVANCED_FACE('',(#27),#159,.T.);
#18=ADVANCED_FACE('',(#28),#160,.T.);
#19=ADVANCED_FACE('',(#29),#161,.T.);
#20=ADVANCED_FACE('',(#30),#162,.T.);
#21=ADVANCED_FACE('',(#31),#163,.T.);
#22=ADVANCED_FACE('',(#32),#164,.T.);
#23=ADVANCED_FACE('',(#33),#165,.T.);
#24=FACE_OUTER_BOUND('',#34,.T.);
#25=FACE_OUTER_BOUND('',#35,.T.);
#26=FACE_OUTER_BOUND('',#36,.T.);
#27=FACE_OUTER_BOUND('',#37,.T.);
#28=FACE_OUTER_BOUND('',#38,.T.);
#29=FACE_OUTER_BOUND('',#39,.T.);
#30=FACE_OUTER_BOUND('',#40,.T.);
#31=FACE_OUTER_BOUND('',#41,.T.);
#32=FACE_OUTER_BOUND('',#42,.T.);
#33=FACE_OUTER_BOUND('',#43,.T.);
#34=EDGE_LOOP('',(#44,#45,#46,#47));
#35=EDGE_LOOP('',(#48,#49,#50,#51));
#36=EDGE_LOOP('',(#52,#53,#54,#55));
#37=EDGE_LOOP('',(#56,#57,#58,#59));
#38=EDGE_LOOP('',(#60,#61,#62,#63));
#39=EDGE_LOOP('',(#64,#65,#66,#67));
#40=EDGE_LOOP('',(#68,#69,#70,#71));
#41=EDGE_LOOP('',(#72,#73,#74,#75));
#42=EDGE_LOOP('',(#76,#77,#78,#79,#80,#81,#82,#83));
#43=EDGE_LOOP('',(#84,#85,#86,#87,#88,#89,#90,#91));
#44=ORIENTED_EDGE('',*,*,#93,.F.);
#45=ORIENTED_EDGE('',*,*,#94,.F.);
#46=ORIENTED_EDGE('',*,*,#92,.F.);
#47=ORIENTED_EDGE('',*,*,#95,.F.);
#48=ORIENTED_EDGE('',*,*,#98,.F.);
#49=ORIENTED_EDGE('',*,*,#96,.F.);
#50=ORIENTED_EDGE('',*,*,#99,.T.);
#51=ORIENTED_EDGE('',*,*,#97,.F.);
#52=ORIENTED_EDGE('',*,*,#100,.F.);
#53=ORIENTED_EDGE('',*,*,#103,.T.);
#54=ORIENTED_EDGE('',*,*,#101,.F.);
#55=ORIENTED_EDGE('',*,*,#102,.T.);
#56=ORIENTED_EDGE('',*,*,#104,.F.);
#57=ORIENTED_EDGE('',*,*,#106,.T.);
#58=ORIENTED_EDGE('',*,*,#105,.F.);
#59=ORIENTED_EDGE('',*,*,#107,.F.);
#60=ORIENTED_EDGE('',*,*,#99,.F.);
#61=ORIENTED_EDGE('',*,*,#108,.F.);
#62=ORIENTED_EDGE('',*,*,#107,.T.);
#63=ORIENTED_EDGE('',*,*,#109,.F.);
#64=ORIENTED_EDGE('',*,*,#111,.F.);
#65=ORIENTED_EDGE('',*,*,#106,.F.);
#66=ORIENTED_EDGE('',*,*,#110,.F.);
#67=ORIENTED_EDGE('',*,*,#94,.T.);
#68=ORIENTED_EDGE('',*,*,#98,.T.);
#69=ORIENTED_EDGE('',*,*,#113,.F.);
#70=ORIENTED_EDGE('',*,*,#103,.F.);
#71=ORIENTED_EDGE('',*,*,#112,.F.);
#72=ORIENTED_EDGE('',*,*,#114,.F.);
#73=ORIENTED_EDGE('',*,*,#102,.F.);
#74=ORIENTED_EDGE('',*,*,#115,.F.);
#75=ORIENTED_EDGE('',*,*,#95,.T.);
#76=ORIENTED_EDGE('',*,*,#97,.T.);
#77=ORIENTED_EDGE('',*,*,#109,.T.);
#78=ORIENTED_EDGE('',*,*,#105,.T.);
#79=ORIENTED_EDGE('',*,*,#111,.T.);
#80=ORIENTED_EDGE('',*,*,#93,.T.);
#81=ORIENTED_EDGE('',*,*,#115,.T.);
#82=ORIENTED_EDGE('',*,*,#101,.T.);
#83=ORIENTED_EDGE('',*,*,#113,.T.);
#84=ORIENTED_EDGE('',*,*,#96,.T.);
#85=ORIENTED_EDGE('',*,*,#112,.T.);
#86=ORIENTED_EDGE('',*,*,#100,.T.);
#87=ORIENTED_EDGE('',*,*,#114,.T.);
#88=ORIENTED_EDGE('',*,*,#92,.T.);
#89=ORIENTED_EDGE('',*,*,#110,.T.);
#90=ORIENTED_EDGE('',*,*,#104,.T.);
#91=ORIENTED_EDGE('',*,*,#108,.T.);
#92=EDGE_CURVE('',#141,#140,#116,.T.);
#93=EDGE_CURVE('',#143,#142,#117,.T.);
#94=EDGE_CURVE('',#140,#143,#118,.T.);
#95=EDGE_CURVE('',#142,#141,#119,.T.);
#96=EDGE_CURVE('',#144,#145,#120,.T.);
#97=EDGE_CURVE('',#146,#147,#121,.T.);
#98=EDGE_CURVE('',#145,#146,#122,.T.);
#99=EDGE_CURVE('',#144,#147,#123,.T.);
#100=EDGE_CURVE('',#149,#148,#124,.T.);
#101=EDGE_CURVE('',#151,#150,#125,.T.);
#102=EDGE_CURVE('',#151,#148,#126,.T.);
#103=EDGE_CURVE('',#149,#150,#127,.T.);
#104=EDGE_CURVE('',#153,#152,#128,.T.);
#105=EDGE_CURVE('',#155,#154,#129,.T.);
#106=EDGE_CURVE('',#153,#154,#130,.T.);
#107=EDGE_CURVE('',#152,#155,#131,.T.);
#108=EDGE_CURVE('',#152,#144,#132,.T.);
#109=EDGE_CURVE('',#147,#155,#133,.T.);
#110=EDGE_CURVE('',#140,#153,#134,.T.);
#111=EDGE_CURVE('',#154,#143,#135,.T.);
#112=EDGE_CURVE('',#145,#149,#136,.T.);
#113=EDGE_CURVE('',#150,#146,#137,.T.);
#114=EDGE_CURVE('',#148,#141,#138,.T.);
#115=EDGE_CURVE('',#142,#151,#139,.T.);
#116=B_SPLINE_CURVE_WITH_KNOTS('',1,(#306,#307),.UNSPECIFIED.,.F.,.F.,(2,
2),(7.25,390.061455847256),.UNSPECIFIED.);
#117=B_SPLINE_CURVE_WITH_KNOTS('',1,(#308,#309),.UNSPECIFIED.,.F.,.F.,(2,
2),(5.75,388.561455847255),.UNSPECIFIED.);
#118=B_SPLINE_CURVE_WITH_KNOTS('',1,(#310,#311),.UNSPECIFIED.,.F.,.F.,(2,
2),(300.0012,3300.0012),.UNSPECIFIED.);
#119=B_SPLINE_CURVE_WITH_KNOTS('',1,(#312,#313),.UNSPECIFIED.,.F.,.F.,(2,
2),(300.0012,3300.0012),.UNSPECIFIED.);
#120=B_SPLINE_CURVE_WITH_KNOTS('',1,(#314,#315),.UNSPECIFIED.,.F.,.F.,(2,
2),(-392.168257756563,-6.50000000000002),.UNSPECIFIED.);
#121=B_SPLINE_CURVE_WITH_KNOTS('',1,(#316,#317),.UNSPECIFIED.,.F.,.F.,(2,
2),(-393.668257756563,-8.00000000000002),.UNSPECIFIED.);
#122=B_SPLINE_CURVE_WITH_KNOTS('',1,(#318,#319),.UNSPECIFIED.,.F.,.F.,(2,
2),(-3300.0012,-300.0012),.UNSPECIFIED.);
#123=B_SPLINE_CURVE_WITH_KNOTS('',1,(#320,#321),.UNSPECIFIED.,.F.,.F.,(2,
2),(300.0012,3300.0012),.UNSPECIFIED.);
#124=B_SPLINE_CURVE_WITH_KNOTS('',1,(#322,#323),.UNSPECIFIED.,.F.,.F.,(2,
2),(-5.99520433297585E-15,1.5),.UNSPECIFIED.);
#125=B_SPLINE_CURVE_WITH_KNOTS('',1,(#324,#325),.UNSPECIFIED.,.F.,.F.,(2,
2),(394.311455847255,395.811455847255),.UNSPECIFIED.);
#126=B_SPLINE_CURVE_WITH_KNOTS('',1,(#326,#327),.UNSPECIFIED.,.F.,.F.,(2,
2),(0.,3000.),.UNSPECIFIED.);
#127=B_SPLINE_CURVE_WITH_KNOTS('',1,(#328,#329),.UNSPECIFIED.,.F.,.F.,(2,
2),(-3000.,0.),.UNSPECIFIED.);
#128=B_SPLINE_CURVE_WITH_KNOTS('',1,(#330,#331),.UNSPECIFIED.,.F.,.F.,(2,
2),(395.811455847255,397.311455847256),.UNSPECIFIED.);
#129=B_SPLINE_CURVE_WITH_KNOTS('',1,(#332,#333),.UNSPECIFIED.,.F.,.F.,(2,
2),(-1.50000000000001,0.),.UNSPECIFIED.);
#130=B_SPLINE_CURVE_WITH_KNOTS('',1,(#334,#335),.UNSPECIFIED.,.F.,.F.,(2,
2),(-3000.,0.),.UNSPECIFIED.);
#131=B_SPLINE_CURVE_WITH_KNOTS('',1,(#336,#337),.UNSPECIFIED.,.F.,.F.,(2,
2),(-3000.,0.),.UNSPECIFIED.);
#132=B_SPLINE_CURVE_WITH_KNOTS('',1,(#338,#339),.UNSPECIFIED.,.F.,.F.,(2,
2),(397.311455847256,403.811455847256),.UNSPECIFIED.);
#133=B_SPLINE_CURVE_WITH_KNOTS('',1,(#340,#341),.UNSPECIFIED.,.F.,.F.,(2,
2),(-8.00000000000002,-1.50000000000001),.UNSPECIFIED.);
#134=B_SPLINE_CURVE_WITH_KNOTS('',1,(#342,#343),.UNSPECIFIED.,.F.,.F.,(2,
2),(390.061455847256,395.811455847255),.UNSPECIFIED.);
#135=B_SPLINE_CURVE_WITH_KNOTS('',1,(#344,#345),.UNSPECIFIED.,.F.,.F.,(2,
2),(0.,5.75),.UNSPECIFIED.);
#136=B_SPLINE_CURVE_WITH_KNOTS('',1,(#346,#347),.UNSPECIFIED.,.F.,.F.,(2,
2),(-6.50000000000002,-5.99520433297585E-15),.UNSPECIFIED.);
#137=B_SPLINE_CURVE_WITH_KNOTS('',1,(#348,#349),.UNSPECIFIED.,.F.,.F.,(2,
2),(395.811455847255,402.311455847255),.UNSPECIFIED.);
#138=B_SPLINE_CURVE_WITH_KNOTS('',1,(#350,#351),.UNSPECIFIED.,.F.,.F.,(2,
2),(1.5,7.25),.UNSPECIFIED.);
#139=B_SPLINE_CURVE_WITH_KNOTS('',1,(#352,#353),.UNSPECIFIED.,.F.,.F.,(2,
2),(388.561455847255,394.311455847255),.UNSPECIFIED.);
#140=VERTEX_POINT('',#290);
#141=VERTEX_POINT('',#291);
#142=VERTEX_POINT('',#292);
#143=VERTEX_POINT('',#293);
#144=VERTEX_POINT('',#294);
#145=VERTEX_POINT('',#295);
#146=VERTEX_POINT('',#296);
#147=VERTEX_POINT('',#297);
#148=VERTEX_POINT('',#298);
#149=VERTEX_POINT('',#299);
#150=VERTEX_POINT('',#300);
#151=VERTEX_POINT('',#301);
#152=VERTEX_POINT('',#302);
#153=VERTEX_POINT('',#303);
#154=VERTEX_POINT('',#304);
#155=VERTEX_POINT('',#305);
#156=PLANE('',#254);
#157=PLANE('',#255);
#158=PLANE('',#256);
#159=PLANE('',#257);
#160=PLANE('',#258);
#161=PLANE('',#259);
#162=PLANE('',#260);
#163=PLANE('',#261);
#164=PLANE('',#262);
#165=PLANE('',#263);
#166=SHAPE_DEFINITION_REPRESENTATION(#167,#252);
#167=PRODUCT_DEFINITION_SHAPE('Document','',#169);
#168=PRODUCT_DEFINITION_CONTEXT('3D Mechanical Parts',#241,'design');
#169=PRODUCT_DEFINITION('A','First version',#211,#168);
#170=DATE_TIME_ROLE('classification_date');
#171=DATE_TIME_ROLE('creation_date');
#172=APPLIED_DATE_AND_TIME_ASSIGNMENT(#196,#170,(#175));
#173=APPLIED_DATE_AND_TIME_ASSIGNMENT(#198,#171,(#169));
#174=SECURITY_CLASSIFICATION_LEVEL('unclassified');
#175=SECURITY_CLASSIFICATION('A','Security for version',#174);
#176=APPLIED_SECURITY_CLASSIFICATION_ASSIGNMENT(#175,(#211));
#177=APPROVAL_ROLE('Version approval');
#178=APPROVAL_ROLE('Version Security approval');
#179=APPROVAL_ROLE('Definition approval');
#180=APPROVAL_PERSON_ORGANIZATION(#229,#205,#177);
#181=APPROVAL_PERSON_ORGANIZATION(#230,#206,#178);
#182=APPROVAL_PERSON_ORGANIZATION(#233,#207,#179);
#183=COORDINATED_UNIVERSAL_TIME_OFFSET(5,0,.BEHIND.);
#184=LOCAL_TIME(0,0,0.,#183);
#185=LOCAL_TIME(0,0,0.,#183);
#186=LOCAL_TIME(0,0,0.,#183);
#187=LOCAL_TIME(0,0,0.,#183);
#188=LOCAL_TIME(0,0,0.,#183);
#189=CALENDAR_DATE(1999,1,1);
#190=CALENDAR_DATE(1999,1,1);
#191=CALENDAR_DATE(1999,1,1);
#192=CALENDAR_DATE(1999,1,1);
#193=CALENDAR_DATE(1999,1,1);
#194=DATE_AND_TIME(#189,#184);
#195=DATE_AND_TIME(#190,#185);
#196=DATE_AND_TIME(#191,#186);
#197=DATE_AND_TIME(#192,#187);
#198=DATE_AND_TIME(#193,#188);
#199=APPROVAL_DATE_TIME(#194,#205);
#200=APPROVAL_DATE_TIME(#195,#206);
#201=APPROVAL_DATE_TIME(#197,#207);
#202=APPROVAL_STATUS('not_yet_approved');
#203=APPROVAL_STATUS('not_yet_approved');
#204=APPROVAL_STATUS('approved');
#205=APPROVAL(#202,'Version approval');
#206=APPROVAL(#203,'Version Security approval');
#207=APPROVAL(#204,'Definition approval');
#208=APPLIED_APPROVAL_ASSIGNMENT(#205,(#211));
#209=APPLIED_APPROVAL_ASSIGNMENT(#206,(#175));
#210=APPLIED_APPROVAL_ASSIGNMENT(#207,(#169));
#211=PRODUCT_DEFINITION_FORMATION_WITH_SPECIFIED_SOURCE('A',
'First version',#243,.MADE.);
#212=PERSON_AND_ORGANIZATION_ROLE('design_owner');
#213=PERSON_AND_ORGANIZATION_ROLE('creator');
#214=PERSON_AND_ORGANIZATION_ROLE('design_supplier');
#215=PERSON_AND_ORGANIZATION_ROLE('classification_officer');
#216=PERSON_AND_ORGANIZATION_ROLE('creator');
#217=ORGANIZATION('STI','lab','lab');
#218=ORGANIZATION('STI','unknown','unknown');
#219=ORGANIZATION('STI','unknown','unknown');
#220=ORGANIZATION('STI','unknown','unknown');
#221=ORGANIZATION('STI','unknown','unknown');
#222=ORGANIZATION('STI','unknown','unknown');
#223=ORGANIZATION('STI','unknown','unknown');
#224=PERSON('1','Box','vc60',$,$,$);
#225=PERSON('2','last','first',$,$,$);
#226=PERSON('3','President','Mr.',$,$,$);
#227=PERSON_AND_ORGANIZATION(#224,#217);
#228=PERSON_AND_ORGANIZATION(#225,#218);
#229=PERSON_AND_ORGANIZATION(#226,#219);
#230=PERSON_AND_ORGANIZATION(#226,#220);
#231=PERSON_AND_ORGANIZATION(#226,#221);
#232=PERSON_AND_ORGANIZATION(#225,#222);
#233=PERSON_AND_ORGANIZATION(#226,#223);
#234=APPLIED_PERSON_AND_ORGANIZATION_ASSIGNMENT(#227,#212,(#243));
#235=APPLIED_PERSON_AND_ORGANIZATION_ASSIGNMENT(#228,#213,(#211));
#236=APPLIED_PERSON_AND_ORGANIZATION_ASSIGNMENT(#228,#214,(#211));
#237=APPLIED_PERSON_AND_ORGANIZATION_ASSIGNMENT(#231,#215,(#175));
#238=APPLIED_PERSON_AND_ORGANIZATION_ASSIGNMENT(#232,#216,(#169));
#239=PRODUCT_RELATED_PRODUCT_CATEGORY('detail','detail',(#243));
#240=APPLICATION_PROTOCOL_DEFINITION('International Standard',
'config_control_design',1994,#241);
#241=APPLICATION_CONTEXT(
'configuration controlled 3d designs of mechanical parts and assemblie
s');
#242=PRODUCT_CONTEXT('3D Mechanical Parts',#241,'mechanical');
#243=PRODUCT('Document','Document','Rhino converted to STEP',(#242));
#244=(
LENGTH_UNIT()
NAMED_UNIT(*)
SI_UNIT(.MILLI.,.METRE.)
);
#245=(
NAMED_UNIT(*)
PLANE_ANGLE_UNIT()
SI_UNIT($,.RADIAN.)
);
#246=DIMENSIONAL_EXPONENTS(0.,0.,0.,0.,0.,0.,0.);
#247=PLANE_ANGLE_MEASURE_WITH_UNIT(PLANE_ANGLE_MEASURE(0.01745329252),#245);
#248=(
CONVERSION_BASED_UNIT('DEGREES',#247)
NAMED_UNIT(#246)
PLANE_ANGLE_UNIT()
);
#249=(
NAMED_UNIT(*)
SI_UNIT($,.STERADIAN.)
SOLID_ANGLE_UNIT()
);
#250=UNCERTAINTY_MEASURE_WITH_UNIT(LENGTH_MEASURE(0.0001),#244,
'DISTANCE_ACCURACY_VALUE',
'Maximum model space distance between geometric entities at asserted c
onnectivities');
#251=(
GEOMETRIC_REPRESENTATION_CONTEXT(3)
GLOBAL_UNCERTAINTY_ASSIGNED_CONTEXT((#250))
GLOBAL_UNIT_ASSIGNED_CONTEXT((#249,#248,#244))
REPRESENTATION_CONTEXT('ID1','3D')
);
#252=SHAPE_REPRESENTATION('Document',(#253,#264),#251);
#253=AXIS2_PLACEMENT_3D('',#279,#265,#266);
#254=AXIS2_PLACEMENT_3D('',#280,#267,$);
#255=AXIS2_PLACEMENT_3D('',#281,#268,$);
#256=AXIS2_PLACEMENT_3D('',#282,#269,$);
#257=AXIS2_PLACEMENT_3D('',#283,#270,$);
#258=AXIS2_PLACEMENT_3D('',#284,#271,$);
#259=AXIS2_PLACEMENT_3D('',#285,#272,$);
#260=AXIS2_PLACEMENT_3D('',#286,#273,$);
#261=AXIS2_PLACEMENT_3D('',#287,#274,$);
#262=AXIS2_PLACEMENT_3D('',#288,#275,$);
#263=AXIS2_PLACEMENT_3D('',#289,#276,$);
#264=AXIS2_PLACEMENT_3D('',#354,#277,#278);
#265=DIRECTION('',(0.,0.,1.));
#266=DIRECTION('',(1.,0.,0.));
#267=DIRECTION('',(0.,-1.,0.));
#268=DIRECTION('',(0.,1.,0.));
#269=DIRECTION('',(0.,-1.,0.));
#270=DIRECTION('',(0.,-1.,0.));
#271=DIRECTION('',(-1.,0.,0.));
#272=DIRECTION('',(1.,0.,0.));
#273=DIRECTION('',(1.,0.,0.));
#274=DIRECTION('',(-1.,0.,0.));
#275=DIRECTION('',(0.,0.,1.));
#276=DIRECTION('',(0.,0.,-1.));
#277=DIRECTION('',(0.,0.,1.));
#278=DIRECTION('',(1.,0.,0.));
#279=CARTESIAN_POINT('',(0.,0.,0.));
#280=CARTESIAN_POINT('',(269.4012,-1.49999999999994,-330.0012));
#281=CARTESIAN_POINT('',(269.4012,5.77912294093795E-14,-330.0012));
#282=CARTESIAN_POINT('',(200.8488,-12.9999999999999,3300.0012));
#283=CARTESIAN_POINT('',(-202.6512,-13.,3300.0012));
#284=CARTESIAN_POINT('',(-202.5,-15.0024,-315.0012));
#285=CARTESIAN_POINT('',(-201.,-15.0024,-315.0012));
#286=CARTESIAN_POINT('',(202.5,-28.0023999999999,3315.0012));
#287=CARTESIAN_POINT('',(201.,-28.0023999999999,3315.0012));
#288=CARTESIAN_POINT('',(-206.55,-13.13,3000.));
#289=CARTESIAN_POINT('',(-206.55,0.13000000000005,1.88125266803105E-13));
#290=CARTESIAN_POINT('',(-201.,-1.5,1.98951966012828E-13));
#291=CARTESIAN_POINT('',(201.,-1.49999999999995,1.80342764743676E-13));
#292=CARTESIAN_POINT('',(201.,-1.49999999999995,3000.));
#293=CARTESIAN_POINT('',(-201.,-1.5,3000.));
#294=CARTESIAN_POINT('',(-202.5,2.66453525910038E-15,1.88125266803105E-13));
#295=CARTESIAN_POINT('',(202.5,4.92240042244873E-14,1.79327761692765E-13));
#296=CARTESIAN_POINT('',(202.5,5.01121826441875E-14,3000.));
#297=CARTESIAN_POINT('',(-202.5,-8.88178419700119E-16,3000.));
#298=CARTESIAN_POINT('',(201.,-13.,0.));
#299=CARTESIAN_POINT('',(202.5,-13.,0.));
#300=CARTESIAN_POINT('',(202.5,-13.,3000.));
#301=CARTESIAN_POINT('',(201.,-13.,3000.));
#302=CARTESIAN_POINT('',(-202.5,-13.,0.));
#303=CARTESIAN_POINT('',(-201.,-13.,0.));
#304=CARTESIAN_POINT('',(-201.,-13.,3000.));
#305=CARTESIAN_POINT('',(-202.5,-13.,3000.));
#306=CARTESIAN_POINT('',(201.,-1.49999999999995,1.80342764743676E-13));
#307=CARTESIAN_POINT('',(-201.,-1.5,1.98951966012828E-13));
#308=CARTESIAN_POINT('',(-201.,-1.5,3000.));
#309=CARTESIAN_POINT('',(201.,-1.49999999999995,3000.));
#310=CARTESIAN_POINT('',(-201.,-1.5,1.98951966012828E-13));
#311=CARTESIAN_POINT('',(-201.,-1.5,3000.));
#312=CARTESIAN_POINT('',(201.,-1.49999999999995,3000.));
#313=CARTESIAN_POINT('',(201.,-1.49999999999995,1.80342764743676E-13));
#314=CARTESIAN_POINT('',(-202.5,2.66453525910038E-15,1.88125266803105E-13));
#315=CARTESIAN_POINT('',(202.5,4.92240042244873E-14,1.79327761692765E-13));
#316=CARTESIAN_POINT('',(202.5,5.01121826441875E-14,3000.));
#317=CARTESIAN_POINT('',(-202.5,-8.88178419700119E-16,3000.));
#318=CARTESIAN_POINT('',(202.5,4.92240042244873E-14,1.79327761692765E-13));
#319=CARTESIAN_POINT('',(202.5,5.01121826441875E-14,3000.));
#320=CARTESIAN_POINT('',(-202.5,2.66453525910038E-15,1.88125266803105E-13));
#321=CARTESIAN_POINT('',(-202.5,-8.88178419700119E-16,3000.));
#322=CARTESIAN_POINT('',(202.5,-13.,0.));
#323=CARTESIAN_POINT('',(201.,-13.,0.));
#324=CARTESIAN_POINT('',(201.,-13.,3000.));
#325=CARTESIAN_POINT('',(202.5,-13.,3000.));
#326=CARTESIAN_POINT('',(201.,-13.,3000.));
#327=CARTESIAN_POINT('',(201.,-13.,0.));
#328=CARTESIAN_POINT('',(202.5,-13.,0.));
#329=CARTESIAN_POINT('',(202.5,-13.,3000.));
#330=CARTESIAN_POINT('',(-201.,-13.,0.));
#331=CARTESIAN_POINT('',(-202.5,-13.,0.));
#332=CARTESIAN_POINT('',(-202.5,-13.,3000.));
#333=CARTESIAN_POINT('',(-201.,-13.,3000.));
#334=CARTESIAN_POINT('',(-201.,-13.,0.));
#335=CARTESIAN_POINT('',(-201.,-13.,3000.));
#336=CARTESIAN_POINT('',(-202.5,-13.,0.));
#337=CARTESIAN_POINT('',(-202.5,-13.,3000.));
#338=CARTESIAN_POINT('',(-202.5,-13.,0.));
#339=CARTESIAN_POINT('',(-202.5,2.66453525910038E-15,1.88125266803105E-13));
#340=CARTESIAN_POINT('',(-202.5,-8.88178419700119E-16,3000.));
#341=CARTESIAN_POINT('',(-202.5,-13.,3000.));
#342=CARTESIAN_POINT('',(-201.,-1.5,1.98951966012828E-13));
#343=CARTESIAN_POINT('',(-201.,-13.,0.));
#344=CARTESIAN_POINT('',(-201.,-13.,3000.));
#345=CARTESIAN_POINT('',(-201.,-1.5,3000.));
#346=CARTESIAN_POINT('',(202.5,4.92240042244873E-14,1.79327761692765E-13));
#347=CARTESIAN_POINT('',(202.5,-13.,0.));
#348=CARTESIAN_POINT('',(202.5,-13.,3000.));
#349=CARTESIAN_POINT('',(202.5,5.01121826441875E-14,3000.));
#350=CARTESIAN_POINT('',(201.,-13.,0.));
#351=CARTESIAN_POINT('',(201.,-1.49999999999995,1.80342764743676E-13));
#352=CARTESIAN_POINT('',(201.,-1.49999999999995,3000.));
#353=CARTESIAN_POINT('',(201.,-13.,3000.));
#354=CARTESIAN_POINT('',(0.,0.,0.));
ENDSEC;
END-ISO-10303-21;
